FANDOM


The Beatles:Day Tripper
Day Tripper
Artist The Beatles
Year 1965
Album Rubber Soul
Diffiulty Easy
Tuning Standard



Main Riff
e|-------------------------------------------------------------------------|
B|-------------------------------------------------------------------------|
G|-------------------------------------------------------------------------|
D|-----------2-0---4----0-2------------------------------------------------|
A|--------2-----2----2-----------------------------------------------------|
E|-0--3-4------------------------------------------------------------------|

Variation
e|-------------------------------------------------------------------------|
B|-------------------------------------------------------------------------|
G|-----------2-0---4----0-2------------------------------------------------|
D|--------2-----2----2-----------------------------------------------------|
A|-0--3-4------------------------------------------------------------------|
E|-------------------------------------------------------------------------|

Chorus Chords
   F#  A   G#  C   B
e|-2---0---4---4---2-------------------------------------------------------|
B|-2---2---4---6---4-------------------------------------------------------|
G|-3---2---5---6---4-------------------------------------------------------|
D|-4---2---6---6---4-------------------------------------------------------|
A|-4---0---6---4---2-------------------------------------------------------|
E|-2---0---4---4---2-------------------------------------------------------|

After Chorus
E--------------------------------------------------------------------------|
B----------------------2---------------------------------------------------|
G-4-----------4--2-----------2--4------------------------------------------|
D-4--0--1--4--------4-----4------------------------------------------------|
A-2------------------------------------------------------------------------|
E--------------------------------------------------------------------------|

Solo
E--------------------------5b----------------------------------------------|
B--------3------3---5h-7--------7---5--------------------------------------|
G-4---4-----4--------------------------------------------------------------|
D--------------------------------------------------------------------------|
A--------------------------------------------------------------------------|
E--------------------------------------------------------------------------|

E-----------10-------10---12b14b12---10------------------------------------|
B-12~--12~-------12-----------------------12-------------------------------|
G--------------------------------------------------------------------------|
D--------------------------------------------------------------------------|
A--------------------------------------------------------------------------|
E--------------------------------------------------------------------------|

3rd Verse Variation
e--------------------------------------------------------------------------|
b--------------------------------------------------------------------------|
g--------------------------------------------------------------------------|
d--------------2-0----4----0-2---------------------------------------------|
a-----------2-------2----2-------------------------------------------------|
e--0--3h-4-----------------------------------------------------------------|

E--------------------------------------------------------------------------|
B--------------------------------------------------------------------------|
G--------------2-0-----4----0-2--------------------------------------------|
D-----------2-------2-----2------------------------------------------------|
A--0--3h-4-----------------------------------------------------------------|
E--------------------------------------------------------------------------|

Ad blocker interference detected!


Wikia is a free-to-use site that makes money from advertising. We have a modified experience for viewers using ad blockers

Wikia is not accessible if you’ve made further modifications. Remove the custom ad blocker rule(s) and the page will load as expected.