FANDOM


Muse:Plug In Baby
Plug In Baby
Artist Muse
Year 2001
Album Origins of Symmetry
Diffiulty Medium
Tuning Standard



INTRO
e|----------------------||--------------------------|---------------------------|
B|----------------------||o-------------------------|-----------7h8p7-----------|
G|----------------------||--------6--------6--7-----|--6--7--9---------9--7--6--|
D|----------------------||--8--9-----8--9--------9--|---------------------------|
A|----------------------||o-------------------------|---------------------------|
E|----------------------||--------------------------|---------------------------|

e|--------------------------|-----------------------------|--------------------------|
B|--------------------------|--------7--7h8p7------7------|--7-----------------7--9--|
G|-----6--7-----6--7--9--6--|--7--9------------10-----10--|-----7-----------7--------|
D|--9--------9--------------|-----------------------------|--------7-----7-----------|
A|--------------------------|-----------------------------|-----------9--------------|
E|--------------------------|-----------------------------|--------------------------|

e|---------------------------||--------------------------|---------------------------|
B|--9br--7------7-----------o||--------------------------|-----------7h8p7-----------|
G|----------10-----7--6--7---||--------6--------6--7-----|--6--7--9---------9--7--6--|
D|---------------------------||--8--9-----8--9--------9--|---------------------------|
A|--------------------------o||--------------------------|---------------------------|
E|---------------------------||--------------------------|---------------------------|

VERSE
e||----------------------------|--------------------------|-------------------------|
B||o---------------------------|--------------------------|-------------------------|
G||----------------------------|--------------------------|-------7--------------7--|
D||--(9)-----5--------------5--|--------5--------------5--|-------------------7-----|
A||o---------------------5-----|--------------------5-----|--5--------x-5--5--------|
E||------3-------x-3--3--------|--3---------x-3--3--------|-------------------------|

e|-------------------------|-------------------------|--------------------------|
B|-------------------------|-------------------------|--------------------------|
G|-------7--------------7--|-------------------------|--------------------------|
D|-------------------7-----|-------4--------------4--|--------4--------------4--|
A|--5--------x-5--5--------|-------------------4-----|--------------------4-----|
E|-------------------------|--2--------x-2--2--------|--2---------x-2--2--------|

e|-------------------------|-------------------------|------------------------|
B|-------------------------|-------------------------|--10--------------------|
G|-------------------------|-------------------------|------11----------------|
D|-------5--------------5--|-------5--------------5--|----------12------------|
A|-------------------5-----|-------------------5-----|------------------------|
E|--3--------x-3--3--------|--3--------x-3--3--------|------------------------|

e|----------------|------------------------|----------------|
B|----------------|--11--------------------|----------------|
G|----------------|------11----------------|----------------|
D|----------------|----------11------------|----------------|
A|----------------|------------------------|----------------|
E|----------------|------------------------|----------------|

e|------------------------|----------------|------------------------|
B|--12--------------------|----------------|--10--------------------|
G|------12----------------|----------------|------11----------------|
D|----------12------------|----------------|----------12------------|
A|------------------------|----------------|------------------------|
E|------------------------|----------------|------------------------|

e|----------------|----------------------------------|----------------------------------|
B|----------------|----------------------------------|----------------------------------|
G|----------------|--11--11--11--11--11--11--11--11--|----------------------------------|
D|----------------|--11--11--11--11--11--11--11--11--|--10--10--10--10--10--10--10--10--|
A|----------------|---9---9---9---9---9---9---9---9--|---9---9---9---9---9---9---9---9--|
E|----------------|----------------------------------|----------------------------------|               

CHORUS
e|--3--3--3--3--3--3--3--3--|--3--3--3--3--3--3--3--3--|--2--2--2--2--2--2--2--2--|
B|--3--3--3--3--3--3--3--3--|--3--3--3--3--3--3--3--3--|--3--3--3--3--3--3--3--3--|
G|--4--4--4--4--4--4--4--4--|--4--4--4--4--4--4--4--4--|--4--4--4--4--4--4--4--4--|
D|--5--5--5--5--5--5--5--5--|--5--5--5--5--5--5--5--5--|--4--4--4--4--4--4--4--4--|
A|--5--5--5--5--5--5--5--5--|--5--5--5--5--5--5--5--5--|--2--2--2--2--2--2--2--2--|
E|--3--3--3--3--3--3--3--3--|--3--3--3--3--3--3--3--3--|--------------------------|
                     
e|--2--2--2--2--2--2--2--2--|--3--3--3--3--3--3--3--3--|--3--3--3--3--3--3--3--3--|
B|--3--3--3--3--3--3--3--3--|--3--3--3--3--3--3--3--3--|--3--3--3--3--3--3--3--3--|
G|--4--4--4--4--4--4--4--4--|--4--4--4--4--4--4--4--4--|--4--4--4--4--4--4--4--4--|
D|--4--4--4--4--4--4--4--4--|--5--5--5--5--5--5--5--5--|--5--5--5--5--5--5--5--5--|
A|--2--2--2--2--2--2--2--2--|--5--5--5--5--5--5--5--5--|--5--5--5--5--5--5--5--5--|
E|--2--2--2--2--2--2--2--2--|--3--3--3--3--3--3--3--3--|--3--3--3--3--3--3--3--3--|

e|--2--2--2--2--2--2--2--2--|--0--0--0--0--0--0--0--0--|--3--3--3--3--3--3--3--3--|
B|--3--3--3--3--3--3--3--3--|--3--3--3--3--2--2--2--2--|--3--3--3--3--3--3--3--3--|
G|--4--4--4--4--4--4--4--4--|--3--3--3--3--3--3--3--3--|--4--4--4--4--4--4--4--4--|
D|--4--4--4--4--4--4--4--4--|--4--4--4--4--4--4--4--4--|--5--5--5--5--5--5--5--5--|
A|--2--2--2--2--2--2--2--2--|--------------------------|--5--5--5--5--5--5--5--5--|
E|--------------------------|--2--2--2--2--2--2--2--2--|--3--3--3--3--3--3--3--3--|

e|--3--3--3--3--3--3--3--3--|--2--2--2--2--2--2--2--2--|--2--2--2--2--2--2--2--2--|
B|--3--3--3--3--3--3--3--3--|--3--3--3--3--3--3--3--3--|--3--3--3--3--3--3--3--3--|
G|--4--4--4--4--4--4--4--4--|--4--4--4--4--4--4--4--4--|--4--4--4--4--4--4--4--4--|
D|--5--5--5--5--5--5--5--5--|--4--4--4--4--4--4--4--4--|--4--4--4--4--4--4--4--4--|
A|--5--5--5--5--5--5--5--5--|--2--2--2--2--2--2--2--2--|--2--2--2--2--2--2--2--2--|
E|--3--3--3--3--3--3--3--3--|--------------------------|--2--2--2--2--2--2--2--2--|

e|--3--3--3--3--3--3--3--3--|--3--3--3--3--3--3--3--3--|--------------------------|
B|--3--3--3--3--3--3--3--3--|--3--3--3--3--3--3--3--3--|--7--7--7--7--7--7--7--7--|
G|--4--4--4--4--4--4--4--4--|--4--4--4--4--4--4--4--4--|--7--7--7--7--7--7--7--7--|
D|--5--5--5--5--5--5--5--5--|--5--5--5--5--5--5--5--5--|--7--7--7--7--7--7--7--7--|
A|--5--5--5--5--5--5--5--5--|--5--5--5--5--5--5--5--5--|--5--5--5--5--5--5--5--5--|
E|--3--3--3--3--3--3--3--3--|--3--3--3--3--3--3--3--3--|--------------------------|

e|--------------------------|--------------------------|---------------------------|
B|--7--7--7--7--7--7--7--7--|--------------------------|-----------7h8p7-----------|
G|--7--7--7--7--7--7--7--7--|--------6--------6--7-----|--6--7--9---------9--7--6--|
D|--7--7--7--7--7--7--7--7--|--8--9-----8--9--------9--|---------------------------|
A|--5--5--5--5--5--5--5--5--|--------------------------|---------------------------|
E|--------------------------|--------------------------|---------------------------|

e|--------------------------|-----------------------------|--------------------------|
B|--------------------------|--------7--7h8p7------7------|--7-----------------7--9--|
G|-----6--7-----6--7--9--6--|--7--9------------10-----10--|-----7-----------7--------|
D|--9--------9--------------|-----------------------------|--------7-----7-----------|
A|--------------------------|-----------------------------|-----------9--------------|
E|--------------------------|-----------------------------|--------------------------|

e|--------------------------|--------------------------|----------------------------|
B|--9br--7------7-----------|--------------------------|-----------7h8p7-----------o|
G|----------10-----7--6--7--|--------6--------6--7-----|--6--7--9---------9--7--6---|
D|--------------------------|--8--9-----8--9--------9--|----------------------------|
A|--------------------------|--------------------------|---------------------------o|
E|--------------------------|--------------------------|----------------------------|

e|--------------------------|---------------------------|--------------------------|
B|--------------------------|-----------7h8p7-----------|--------------------------|
G|--------6--------6--7-----|--6--7--9---------9--7--6--|-----6--7-----6--7--9--6--|
D|--8--9-----8--9--------9--|---------------------------|--9--------9--------------|
A|--------------------------|---------------------------|--------------------------|
E|--------------------------|---------------------------|--------------------------|

e|-----------------------------|--------------------------|--------------------------|
B|--------7--7h8p7------7------|--7-----------------7--9--|--9br--7------7-----------|
G|--7--9------------10-----10--|-----7-----------7--------|----------10-----7--6--7--|
D|-----------------------------|--------7-----7-----------|--------------------------|
A|-----------------------------|-----------9--------------|--------------------------|
E|-----------------------------|--------------------------|--------------------------|

e|--------------------------|---------------------------|--------------------------|
B|--------------------------|-----------7h8p7-----------|--------------------------|
G|--------6--------6--7-----|--6--7--9---------9--7--6--|-----6--7-----6--7--9--6--|
D|--8--9-----8--9--------9--|---------------------------|--9--------9--------------|
A|--------------------------|---------------------------|--------------------------|
E|--------------------------|---------------------------|--------------------------|

e|-----------------------------|--------------------------|--------------------------|
B|--------7--7h8p7------7------|--7-----------------7--9--|--9br--7------7-----------|
G|--7--9------------10-----10--|-----7-----------7--------|----------10-----7--6--7--|
D|-----------------------------|--------7-----7-----------|--------------------------|
A|-----------------------------|-----------9--------------|--------------------------|
E|-----------------------------|--------------------------|--------------------------|
                                                    
e|--------------------------|---------------------------|--------------------------|
B|--------------------------|-----------7h8p7-----------|--------------------------|
G|--------6--------6--7-----|--6--7--9---------9--7--6--|-----6--7-----6--7--9--6--|
D|--8--9-----8--9--------9--|---------------------------|--9--------9--------------|
A|--------------------------|---------------------------|--------------------------|
E|--------------------------|---------------------------|--------------------------|
  
e|-----------------------------|--------------------------|--------------------------|
B|--------7--7h8p7------7------|--7-----------------7--9--|--9br--7------7-----------|
G|--7--9------------10-----10--|-----7-----------7--------|----------10-----7--6--7--|
D|-----------------------------|--------7-----7-----------|--------------------------|
A|-----------------------------|-----------9--------------|--------------------------|
E|-----------------------------|--------------------------|--------------------------|

e|--------------------------|---------------------------|------------------|
B|--------------------------|-----------7h8p7-----------|------------------|
G|--------6--------6--7-----|--6--7--9---------9--7--6--|------------------|
D|--8--9-----8--9--------9--|---------------------------|--9---------------|
A|--------------------------|---------------------------|------------------|
E|--------------------------|---------------------------|------------------|

Ad blocker interference detected!


Wikia is a free-to-use site that makes money from advertising. We have a modified experience for viewers using ad blockers

Wikia is not accessible if you’ve made further modifications. Remove the custom ad blocker rule(s) and the page will load as expected.